ISO-10303-21;
HEADER;
FILE_DESCRIPTION (( 'STEP AP214' ),
    '1' );
FILE_NAME ('am-5598 32x18x.125 Polycarbonate Sheet.STEP',
    '2025-01-06T18:09:03',
    ( '' ),
    ( '' ),
    'SwSTEP 2.0',
    'SolidWorks 2024',
    '' );
FILE_SCHEMA (( 'AUTOMOTIVE_DESIGN' ));
ENDSEC;

DATA;
#1 = VERTEX_POINT ( 'NONE', #60 ) ;
#2 = CARTESIAN_POINT ( 'NONE',  ( 0.000000000000000000, 0.1179999999999999938, 0.000000000000000000 ) ) ;
#3 = LINE ( 'NONE', #121, #73 ) ;
#4 = LINE ( 'NONE', #172, #137 ) ;
#5 = EDGE_CURVE ( 'NONE', #149, #36, #180, .T. ) ;
#6 = FACE_OUTER_BOUND ( 'NONE', #77, .T. ) ;
#7 = PRODUCT_DEFINITION_FORMATION_WITH_SPECIFIED_SOURCE ( 'ANY', '', #186, .NOT_KNOWN. ) ;
#8 = LENGTH_MEASURE_WITH_UNIT ( LENGTH_MEASURE( 0.02539999999999999897 ), #32 );
#9 = APPLICATION_CONTEXT ( 'automotive_design' ) ;
#10 = ORIENTED_EDGE ( 'NONE', *, *, #102, .T. ) ;
#11 = DIRECTION ( 'NONE',  ( 1.000000000000000000, 0.000000000000000000, -0.000000000000000000 ) ) ;
#12 = VECTOR ( 'NONE', #47, 39.37007874015748143 ) ;
#13 = ORIENTED_EDGE ( 'NONE', *, *, #5, .T. ) ;
#14 = EDGE_CURVE ( 'NONE', #165, #1, #183, .T. ) ;
#15 = VERTEX_POINT ( 'NONE', #37 ) ;
#16 = EDGE_LOOP ( 'NONE', ( #10, #113, #138, #62 ) ) ;
#17 = CARTESIAN_POINT ( 'NONE',  ( 18.00000000000000000, 0.1179999999999999938, 0.000000000000000000 ) ) ;
#18 = CARTESIAN_POINT ( 'NONE',  ( 18.00000000000000000, 0.1179999999999999938, 0.000000000000000000 ) ) ;
#19 = PLANE ( 'NONE',  #159 ) ;
#20 = LINE ( 'NONE', #184, #171 ) ;
#21 = DIRECTION ( 'NONE',  ( -0.000000000000000000, -0.000000000000000000, 1.000000000000000000 ) ) ;
#22 =( NAMED_UNIT ( * ) SI_UNIT ( $, .STERADIAN. ) SOLID_ANGLE_UNIT ( ) );
#23 = CLOSED_SHELL ( 'NONE', ( #61, #96, #116, #82, #125, #134 ) ) ;
#24 = EDGE_LOOP ( 'NONE', ( #59, #129, #48, #136 ) ) ;
#25 = DIRECTION ( 'NONE',  ( -0.000000000000000000, -1.000000000000000000, -0.000000000000000000 ) ) ;
#26 = CARTESIAN_POINT ( 'NONE',  ( 18.00000000000000000, 0.1179999999999999938, -32.00000000000000000 ) ) ;
#27 = ORIENTED_EDGE ( 'NONE', *, *, #148, .T. ) ;
#28 = DIRECTION ( 'NONE',  ( 0.000000000000000000, 0.000000000000000000, 1.000000000000000000 ) ) ;
#29 = SURFACE_STYLE_USAGE ( .BOTH. , #68 ) ;
#30 = DIRECTION ( 'NONE',  ( -1.000000000000000000, -0.000000000000000000, -0.000000000000000000 ) ) ;
#31 = CARTESIAN_POINT ( 'NONE',  ( 0.000000000000000000, 0.1179999999999999938, -32.00000000000000000 ) ) ;
#32 =( LENGTH_UNIT ( ) NAMED_UNIT ( * ) SI_UNIT ( $, .METRE. ) );
#33 = AXIS2_PLACEMENT_3D ( 'NONE', #99, #103, #119 ) ;
#34 = EDGE_CURVE ( 'NONE', #15, #165, #152, .T. ) ;
#35 = ORIENTED_EDGE ( 'NONE', *, *, #14, .F. ) ;
#36 = VERTEX_POINT ( 'NONE', #26 ) ;
#37 = CARTESIAN_POINT ( 'NONE',  ( 0.000000000000000000, 0.000000000000000000, 0.000000000000000000 ) ) ;
#38 = EDGE_CURVE ( 'NONE', #1, #161, #189, .T. ) ;
#39 = ORIENTED_EDGE ( 'NONE', *, *, #38, .T. ) ;
#40 = DIRECTION ( 'NONE',  ( 0.000000000000000000, 0.000000000000000000, -1.000000000000000000 ) ) ;
#41 =( CONVERSION_BASED_UNIT ( 'INCH', #83 ) LENGTH_UNIT ( ) NAMED_UNIT ( #105 ) );
#42 = VECTOR ( 'NONE', #151, 39.37007874015748143 ) ;
#43 = FACE_OUTER_BOUND ( 'NONE', #24, .T. ) ;
#44 = UNCERTAINTY_MEASURE_WITH_UNIT (LENGTH_MEASURE( 1.000000000000000082E-05 ), #41, 'distance_accuracy_value', 'NONE');
#45 = VECTOR ( 'NONE', #30, 39.37007874015748143 ) ;
#46 = EDGE_LOOP ( 'NONE', ( #131, #94, #163, #111 ) ) ;
#47 = DIRECTION ( 'NONE',  ( 1.000000000000000000, 0.000000000000000000, 0.000000000000000000 ) ) ;
#48 = ORIENTED_EDGE ( 'NONE', *, *, #5, .F. ) ;
#49 = COLOUR_RGB ( '',0.7921568627450980005, 0.8196078431372548767, 0.9333333333333333481 ) ;
#50 = DIRECTION ( 'NONE',  ( 0.000000000000000000, 0.000000000000000000, -1.000000000000000000 ) ) ;
#51 = DIRECTION ( 'NONE',  ( 0.000000000000000000, 0.000000000000000000, -1.000000000000000000 ) ) ;
#52 =( LENGTH_UNIT ( ) NAMED_UNIT ( * ) SI_UNIT ( $, .METRE. ) );
#53 = PLANE ( 'NONE',  #55 ) ;
#54 = SURFACE_STYLE_FILL_AREA ( #67 ) ;
#55 = AXIS2_PLACEMENT_3D ( 'NONE', #17, #64, #145 ) ;
#56 = CARTESIAN_POINT ( 'NONE',  ( 0.000000000000000000, 0.1179999999999999938, -32.00000000000000000 ) ) ;
#57 = EDGE_CURVE ( 'NONE', #181, #161, #118, .T. ) ;
#58 = STYLED_ITEM ( 'NONE', ( #158 ), #108 ) ;
#59 = ORIENTED_EDGE ( 'NONE', *, *, #14, .T. ) ;
#60 = CARTESIAN_POINT ( 'NONE',  ( 18.00000000000000000, 0.000000000000000000, -32.00000000000000000 ) ) ;
#61 = ADVANCED_FACE ( 'NONE', ( #182 ), #91, .F. ) ;
#62 = ORIENTED_EDGE ( 'NONE', *, *, #57, .T. ) ;
#63 = ORIENTED_EDGE ( 'NONE', *, *, #66, .T. ) ;
#64 = DIRECTION ( 'NONE',  ( -1.000000000000000000, 0.000000000000000000, 0.000000000000000000 ) ) ;
#65 = CARTESIAN_POINT ( 'NONE',  ( 0.000000000000000000, 0.000000000000000000, -32.00000000000000000 ) ) ;
#66 = EDGE_CURVE ( 'NONE', #36, #1, #74, .T. ) ;
#67 = FILL_AREA_STYLE ('',( #144 ) ) ;
#68 = SURFACE_SIDE_STYLE ('',( #54 ) ) ;
#69 = LINE ( 'NONE', #98, #88 ) ;
#70 = ORIENTED_EDGE ( 'NONE', *, *, #102, .F. ) ;
#71 = DIMENSIONAL_EXPONENTS ( 1.000000000000000000, 0.000000000000000000, 0.000000000000000000, 0.000000000000000000, 0.000000000000000000, 0.000000000000000000, 0.000000000000000000 ) ;
#72 = SHAPE_DEFINITION_REPRESENTATION ( #124, #123 ) ;
#73 = VECTOR ( 'NONE', #170, 39.37007874015748143 ) ;
#74 = LINE ( 'NONE', #95, #112 ) ;
#75 = CARTESIAN_POINT ( 'NONE',  ( 0.000000000000000000, 0.1179999999999999938, -32.00000000000000000 ) ) ;
#76 = DIRECTION ( 'NONE',  ( -1.000000000000000000, -0.000000000000000000, -0.000000000000000000 ) ) ;
#77 = EDGE_LOOP ( 'NONE', ( #153, #92, #13, #27 ) ) ;
#78 = FACE_OUTER_BOUND ( 'NONE', #179, .T. ) ;
#79 = AXIS2_PLACEMENT_3D ( 'NONE', #188, #127, #128 ) ;
#80 = AXIS2_PLACEMENT_3D ( 'NONE', #139, #126, #81 ) ;
#81 = DIRECTION ( 'NONE',  ( -1.000000000000000000, 0.000000000000000000, -0.000000000000000000 ) ) ;
#82 = ADVANCED_FACE ( 'NONE', ( #78 ), #167, .F. ) ;
#83 = LENGTH_MEASURE_WITH_UNIT ( LENGTH_MEASURE( 0.02539999999999999897 ), #52 );
#84 = FACE_OUTER_BOUND ( 'NONE', #150, .T. ) ;
#85 = VECTOR ( 'NONE', #25, 39.37007874015748143 ) ;
#86 = EDGE_CURVE ( 'NONE', #166, #149, #133, .T. ) ;
#87 = PLANE ( 'NONE',  #80 ) ;
#88 = VECTOR ( 'NONE', #100, 39.37007874015748143 ) ;
#89 = APPLICATION_PROTOCOL_DEFINITION ( 'draft international standard', 'automotive_design', 1998, #160 ) ;
#90 = CARTESIAN_POINT ( 'NONE',  ( 0.000000000000000000, 0.000000000000000000, 0.000000000000000000 ) ) ;
#91 = PLANE ( 'NONE',  #177 ) ;
#92 = ORIENTED_EDGE ( 'NONE', *, *, #86, .T. ) ;
#93 = VECTOR ( 'NONE', #51, 39.37007874015748143 ) ;
#94 = ORIENTED_EDGE ( 'NONE', *, *, #178, .F. ) ;
#95 = CARTESIAN_POINT ( 'NONE',  ( 18.00000000000000000, 0.1179999999999999938, -32.00000000000000000 ) ) ;
#96 = ADVANCED_FACE ( 'NONE', ( #114 ), #87, .F. ) ;
#97 = PRESENTATION_LAYER_ASSIGNMENT (  '', '', ( #58 ) ) ;
#98 = CARTESIAN_POINT ( 'NONE',  ( 0.000000000000000000, 0.000000000000000000, 0.000000000000000000 ) ) ;
#99 = CARTESIAN_POINT ( 'NONE',  ( 0.000000000000000000, 0.000000000000000000, 0.000000000000000000 ) ) ;
#100 = DIRECTION ( 'NONE',  ( -0.000000000000000000, -0.000000000000000000, 1.000000000000000000 ) ) ;
#101 = UNCERTAINTY_MEASURE_WITH_UNIT (LENGTH_MEASURE( 1.000000000000000082E-05 ), #173, 'distance_accuracy_value', 'NONE');
#102 = EDGE_CURVE ( 'NONE', #161, #15, #69, .T. ) ;
#103 = DIRECTION ( 'NONE',  ( 0.000000000000000000, -1.000000000000000000, 0.000000000000000000 ) ) ;
#104 =( GEOMETRIC_REPRESENTATION_CONTEXT ( 3 ) GLOBAL_UNCERTAINTY_ASSIGNED_CONTEXT ( ( #101 ) ) GLOBAL_UNIT_ASSIGNED_CONTEXT ( ( #173, #109, #22 ) ) REPRESENTATION_CONTEXT ( 'NONE', 'WORKASPACE' ) );
#105 = DIMENSIONAL_EXPONENTS ( 1.000000000000000000, 0.000000000000000000, 0.000000000000000000, 0.000000000000000000, 0.000000000000000000, 0.000000000000000000, 0.000000000000000000 ) ;
#106 = PRODUCT_CONTEXT ( 'NONE', #160, 'mechanical' ) ;
#107 = EDGE_CURVE ( 'NONE', #181, #166, #4, .T. ) ;
#108 = MANIFOLD_SOLID_BREP ( 'Boss-Extrude1', #23 ) ;
#109 =( NAMED_UNIT ( * ) PLANE_ANGLE_UNIT ( ) SI_UNIT ( $, .RADIAN. ) );
#110 = ORIENTED_EDGE ( 'NONE', *, *, #38, .F. ) ;
#111 = ORIENTED_EDGE ( 'NONE', *, *, #143, .T. ) ;
#112 = VECTOR ( 'NONE', #132, 39.37007874015748143 ) ;
#113 = ORIENTED_EDGE ( 'NONE', *, *, #143, .F. ) ;
#114 = FACE_OUTER_BOUND ( 'NONE', #46, .T. ) ;
#115 = ORIENTED_EDGE ( 'NONE', *, *, #57, .F. ) ;
#116 = ADVANCED_FACE ( 'NONE', ( #43 ), #53, .F. ) ;
#117 = CARTESIAN_POINT ( 'NONE',  ( 18.00000000000000000, 0.000000000000000000, 0.000000000000000000 ) ) ;
#118 = LINE ( 'NONE', #56, #85 ) ;
#119 = DIRECTION ( 'NONE',  ( 0.000000000000000000, -0.000000000000000000, -1.000000000000000000 ) ) ;
#120 =( GEOMETRIC_REPRESENTATION_CONTEXT ( 3 ) GLOBAL_UNCERTAINTY_ASSIGNED_CONTEXT ( ( #44 ) ) GLOBAL_UNIT_ASSIGNED_CONTEXT ( ( #41, #187, #142 ) ) REPRESENTATION_CONTEXT ( 'NONE', 'WORKASPACE' ) );
#121 = CARTESIAN_POINT ( 'NONE',  ( 18.00000000000000000, 0.1179999999999999938, 0.000000000000000000 ) ) ;
#122 = CARTESIAN_POINT ( 'NONE',  ( 0.000000000000000000, 0.1179999999999999938, -32.00000000000000000 ) ) ;
#123 = ADVANCED_BREP_SHAPE_REPRESENTATION ( 'am-5598 32x18x.125 Polycarbonate Sheet', ( #108, #79 ), #104 ) ;
#124 = PRODUCT_DEFINITION_SHAPE ( 'NONE', 'NONE',  #174 ) ;
#125 = ADVANCED_FACE ( 'NONE', ( #6 ), #19, .F. ) ;
#126 = DIRECTION ( 'NONE',  ( 0.000000000000000000, 0.000000000000000000, -1.000000000000000000 ) ) ;
#127 = DIRECTION ( 'NONE',  ( 0.000000000000000000, 0.000000000000000000, 1.000000000000000000 ) ) ;
#128 = DIRECTION ( 'NONE',  ( 1.000000000000000000, 0.000000000000000000, 0.000000000000000000 ) ) ;
#129 = ORIENTED_EDGE ( 'NONE', *, *, #66, .F. ) ;
#130 = PRODUCT_RELATED_PRODUCT_CATEGORY ( 'part', '', ( #186 ) ) ;
#131 = ORIENTED_EDGE ( 'NONE', *, *, #34, .T. ) ;
#132 = DIRECTION ( 'NONE',  ( -0.000000000000000000, -1.000000000000000000, -0.000000000000000000 ) ) ;
#133 = LINE ( 'NONE', #154, #12 ) ;
#134 = ADVANCED_FACE ( 'NONE', ( #84 ), #168, .T. ) ;
#135 = CARTESIAN_POINT ( 'NONE',  ( 0.000000000000000000, 0.000000000000000000, -32.00000000000000000 ) ) ;
#136 = ORIENTED_EDGE ( 'NONE', *, *, #178, .T. ) ;
#137 = VECTOR ( 'NONE', #21, 39.37007874015748143 ) ;
#138 = ORIENTED_EDGE ( 'NONE', *, *, #107, .F. ) ;
#139 = CARTESIAN_POINT ( 'NONE',  ( 0.000000000000000000, 0.1179999999999999938, 0.000000000000000000 ) ) ;
#140 = PRODUCT_DEFINITION_CONTEXT ( 'detailed design', #9, 'design' ) ;
#141 = CARTESIAN_POINT ( 'NONE',  ( 18.00000000000000000, 0.000000000000000000, 0.000000000000000000 ) ) ;
#142 =( NAMED_UNIT ( * ) SI_UNIT ( $, .STERADIAN. ) SOLID_ANGLE_UNIT ( ) );
#143 = EDGE_CURVE ( 'NONE', #166, #15, #20, .T. ) ;
#144 = FILL_AREA_STYLE_COLOUR ( '', #49 ) ;
#145 = DIRECTION ( 'NONE',  ( 0.000000000000000000, 0.000000000000000000, 1.000000000000000000 ) ) ;
#146 = MECHANICAL_DESIGN_GEOMETRIC_PRESENTATION_REPRESENTATION (  '', ( #58 ), #120 ) ;
#147 = VECTOR ( 'NONE', #50, 39.37007874015748143 ) ;
#148 = EDGE_CURVE ( 'NONE', #36, #181, #156, .T. ) ;
#149 = VERTEX_POINT ( 'NONE', #18 ) ;
#150 = EDGE_LOOP ( 'NONE', ( #70, #110, #35, #176 ) ) ;
#151 = DIRECTION ( 'NONE',  ( 1.000000000000000000, 0.000000000000000000, 0.000000000000000000 ) ) ;
#152 = LINE ( 'NONE', #90, #42 ) ;
#153 = ORIENTED_EDGE ( 'NONE', *, *, #107, .T. ) ;
#154 = CARTESIAN_POINT ( 'NONE',  ( 0.000000000000000000, 0.1179999999999999938, 0.000000000000000000 ) ) ;
#155 = DIRECTION ( 'NONE',  ( 0.000000000000000000, -0.000000000000000000, -1.000000000000000000 ) ) ;
#156 = LINE ( 'NONE', #122, #45 ) ;
#157 = DIRECTION ( 'NONE',  ( 0.000000000000000000, -1.000000000000000000, 0.000000000000000000 ) ) ;
#158 = PRESENTATION_STYLE_ASSIGNMENT (( #29 ) ) ;
#159 = AXIS2_PLACEMENT_3D ( 'NONE', #185, #157, #155 ) ;
#160 = APPLICATION_CONTEXT ( 'automotive_design' ) ;
#161 = VERTEX_POINT ( 'NONE', #65 ) ;
#162 = AXIS2_PLACEMENT_3D ( 'NONE', #75, #28, #11 ) ;
#163 = ORIENTED_EDGE ( 'NONE', *, *, #86, .F. ) ;
#164 = ORIENTED_EDGE ( 'NONE', *, *, #148, .F. ) ;
#165 = VERTEX_POINT ( 'NONE', #141 ) ;
#166 = VERTEX_POINT ( 'NONE', #2 ) ;
#167 = PLANE ( 'NONE',  #162 ) ;
#168 = PLANE ( 'NONE',  #33 ) ;
#169 = DIRECTION ( 'NONE',  ( -0.000000000000000000, -1.000000000000000000, -0.000000000000000000 ) ) ;
#170 = DIRECTION ( 'NONE',  ( -0.000000000000000000, -1.000000000000000000, -0.000000000000000000 ) ) ;
#171 = VECTOR ( 'NONE', #169, 39.37007874015748143 ) ;
#172 = CARTESIAN_POINT ( 'NONE',  ( 0.000000000000000000, 0.1179999999999999938, 0.000000000000000000 ) ) ;
#173 =( CONVERSION_BASED_UNIT ( 'INCH', #8 ) LENGTH_UNIT ( ) NAMED_UNIT ( #71 ) );
#174 = PRODUCT_DEFINITION ( 'UNKNOWN', '', #7, #140 ) ;
#175 = APPLICATION_PROTOCOL_DEFINITION ( 'draft international standard', 'automotive_design', 1998, #9 ) ;
#176 = ORIENTED_EDGE ( 'NONE', *, *, #34, .F. ) ;
#177 = AXIS2_PLACEMENT_3D ( 'NONE', #191, #190, #40 ) ;
#178 = EDGE_CURVE ( 'NONE', #149, #165, #3, .T. ) ;
#179 = EDGE_LOOP ( 'NONE', ( #39, #115, #164, #63 ) ) ;
#180 = LINE ( 'NONE', #192, #147 ) ;
#181 = VERTEX_POINT ( 'NONE', #31 ) ;
#182 = FACE_OUTER_BOUND ( 'NONE', #16, .T. ) ;
#183 = LINE ( 'NONE', #117, #93 ) ;
#184 = CARTESIAN_POINT ( 'NONE',  ( 0.000000000000000000, 0.1179999999999999938, 0.000000000000000000 ) ) ;
#185 = CARTESIAN_POINT ( 'NONE',  ( 0.000000000000000000, 0.1179999999999999938, 0.000000000000000000 ) ) ;
#186 = PRODUCT ( 'am-5598 32x18x.125 Polycarbonate Sheet', 'am-5598 32x18x.125 Polycarbonate Sheet', '', ( #106 ) ) ;
#187 =( NAMED_UNIT ( * ) PLANE_ANGLE_UNIT ( ) SI_UNIT ( $, .RADIAN. ) );
#188 = CARTESIAN_POINT ( 'NONE',  ( 0.000000000000000000, 0.000000000000000000, 0.000000000000000000 ) ) ;
#189 = LINE ( 'NONE', #135, #193 ) ;
#190 = DIRECTION ( 'NONE',  ( 1.000000000000000000, -0.000000000000000000, 0.000000000000000000 ) ) ;
#191 = CARTESIAN_POINT ( 'NONE',  ( 0.000000000000000000, 0.1179999999999999938, 0.000000000000000000 ) ) ;
#192 = CARTESIAN_POINT ( 'NONE',  ( 18.00000000000000000, 0.1179999999999999938, 0.000000000000000000 ) ) ;
#193 = VECTOR ( 'NONE', #76, 39.37007874015748143 ) ;
ENDSEC;
END-ISO-10303-21;
